„The Final Countdown”
z repertuaru Europe
(motyw przewodni)

„The Final Countdown”
z repertuaru Europe
(motyw przewodni)

Motyw przewodni z utworu „The Final Countdown” z repertuaru zespołu Europe

 e||-------9-7-9----|---10-9-10-9-7-|---10-9-10----|--7----7------7-||
 B||-------------7--|---------------|------------7-|----10---10-9---||
 G||----------------|---------------|--------------|----------------||
 D||----------------|---------------|--------------|----------------||
 A||----------------|---------------|--------------|----------------||
 E||----------------|---------------|--------------|----------------||

 e||-------9-7-9----|---10-9-10-9-7-|---10-9-10----|--7----7------7-||
 B||-10----------7--|---------------|------------7-|----10---10-9---||
 G||----------------|---------------|--------------|----------------||
 D||----------------|---------------|--------------|----------------||
 A||----------------|---------------|--------------|----------------||
 E||----------------|---------------|--------------|----------------||

 e|----------7----7-|-9-7--------10-|-9---9-10-9-7-|-9--------------||
 B|-10--9-10---10---|-----10-9-7----|--------------|----------------||
 G|-----------------|---------------|--------------|----------------||
 D|-----------------|---------------|--------------|----------------||
 A|-----------------|---------------|--------------|----------------||
 E|-----------------|---------------|--------------|----------------||

Pobierz harmonię utworu w pliku .pdf

Pobierz tabulaturę motywu w pliku GuitarPro/TuxGuitar

Pobierz tabulaturę akordami zwrotki w pliku GuitarPro/TuxGuitar

Zobacz utwór oryginalny na YouTube: